ISO-10303-21;
HEADER;
FILE_DESCRIPTION (( 'STEP AP203' ),
    '1' );
FILE_NAME ('AL-HD14-5.1x10-35 Äèñòàíöèîííàÿ âòóëêà 5.1x10-35.STEP',
    '2024-12-12T13:53:45',
    ( '' ),
    ( '' ),
    'SwSTEP 2.0',
    'SolidWorks 2021',
    '' );
FILE_SCHEMA (( 'CONFIG_CONTROL_DESIGN' ));
ENDSEC;

DATA;
#1 = ADVANCED_FACE ( 'NONE', ( #48, #128 ), #83, .F. ) ;
#2 = ORIENTED_EDGE ( 'NONE', *, *, #72, .T. ) ;
#3 = CLOSED_SHELL ( 'NONE', ( #43, #94, #211, #1, #34, #36 ) ) ;
#4 = SECURITY_CLASSIFICATION_LEVEL ( 'unclassified' ) ;
#5 = APPROVAL_DATE_TIME ( #113, #174 ) ;
#6 = CARTESIAN_POINT ( 'NONE',  ( 2.549999999999999822, 3.122849337825750419E-16, 35.00000000000000000 ) ) ;
#7 = CARTESIAN_POINT ( 'NONE',  ( 0.000000000000000000, 0.000000000000000000, 35.00000000000000000 ) ) ;
#8 = EDGE_CURVE ( 'NONE', #143, #202, #69, .T. ) ;
#9 = AXIS2_PLACEMENT_3D ( 'NONE', #82, #126, #118 ) ;
#10 = DIRECTION ( 'NONE',  ( 1.000000000000000000, 0.000000000000000000, 0.000000000000000000 ) ) ;
#11 = CARTESIAN_POINT ( 'NONE',  ( 0.000000000000000000, 0.000000000000000000, 35.00000000000000000 ) ) ;
#12 = EDGE_LOOP ( 'NONE', ( #89, #86 ) ) ;
#13 = DIRECTION ( 'NONE',  ( -0.000000000000000000, -0.000000000000000000, -1.000000000000000000 ) ) ;
#14 = VECTOR ( 'NONE', #207, 1000.000000000000000 ) ;
#15 = ORIENTED_EDGE ( 'NONE', *, *, #149, .T. ) ;
#16 = CC_DESIGN_APPROVAL ( #243, ( #167 ) ) ;
#17 = CC_DESIGN_DATE_AND_TIME_ASSIGNMENT ( #59, #137, ( #155 ) ) ;
#18 = ORIENTED_EDGE ( 'NONE', *, *, #58, .T. ) ;
#19 = PERSON_AND_ORGANIZATION ( #141, #246 ) ;
#20 = COORDINATED_UNIVERSAL_TIME_OFFSET ( 3, 0, .AHEAD. ) ;
#21 = COORDINATED_UNIVERSAL_TIME_OFFSET ( 3, 0, .AHEAD. ) ;
#22 = PRODUCT_DEFINITION ( 'UNKNOWN', '', #167, #185 ) ;
#23 = APPROVAL_STATUS ( 'not_yet_approved' ) ;
#24 = CIRCLE ( 'NONE', #151, 2.549999999999999822 ) ;
#25 = DIRECTION ( 'NONE',  ( -0.000000000000000000, -0.000000000000000000, -1.000000000000000000 ) ) ;
#26 = FACE_OUTER_BOUND ( 'NONE', #12, .T. ) ;
#27 = CARTESIAN_POINT ( 'NONE',  ( 0.000000000000000000, 0.000000000000000000, 35.00000000000000000 ) ) ;
#28 = CARTESIAN_POINT ( 'NONE',  ( 5.000000000000000000, 6.123233995736766282E-16, 35.00000000000000000 ) ) ;
#29 = ORIENTED_EDGE ( 'NONE', *, *, #149, .F. ) ;
#30 = VERTEX_POINT ( 'NONE', #222 ) ;
#31 = CARTESIAN_POINT ( 'NONE',  ( -5.000000000000000000, 0.000000000000000000, 35.00000000000000000 ) ) ;
#32 = AXIS2_PLACEMENT_3D ( 'NONE', #121, #13, #84 ) ;
#33 = CYLINDRICAL_SURFACE ( 'NONE', #209, 5.000000000000000000 ) ;
#34 = ADVANCED_FACE ( 'NONE', ( #165 ), #33, .T. ) ;
#35 = ORIENTED_EDGE ( 'NONE', *, *, #111, .T. ) ;
#36 = ADVANCED_FACE ( 'NONE', ( #183 ), #186, .F. ) ;
#37 = AXIS2_PLACEMENT_3D ( 'NONE', #217, #50, #102 ) ;
#38 = PERSON_AND_ORGANIZATION_ROLE ( 'creator' ) ;
#39 = ORIENTED_EDGE ( 'NONE', *, *, #66, .F. ) ;
#40 = DIRECTION ( 'NONE',  ( 1.000000000000000000, 0.000000000000000000, 0.000000000000000000 ) ) ;
#41 = PERSON_AND_ORGANIZATION_ROLE ( 'creator' ) ;
#42 = APPROVAL_ROLE ( '' ) ;
#43 = ADVANCED_FACE ( 'NONE', ( #168 ), #249, .F. ) ;
#44 = DIRECTION ( 'NONE',  ( 1.000000000000000000, 0.000000000000000000, 0.000000000000000000 ) ) ;
#45 = CARTESIAN_POINT ( 'NONE',  ( 5.000000000000000000, 6.123233995736766282E-16, 0.000000000000000000 ) ) ;
#46 = DIRECTION ( 'NONE',  ( -0.000000000000000000, -0.000000000000000000, -1.000000000000000000 ) ) ;
#47 = CARTESIAN_POINT ( 'NONE',  ( 0.000000000000000000, 0.000000000000000000, 0.000000000000000000 ) ) ;
#48 = FACE_OUTER_BOUND ( 'NONE', #70, .T. ) ;
#49 = CC_DESIGN_SECURITY_CLASSIFICATION ( #155, ( #167 ) ) ;
#50 = DIRECTION ( 'NONE',  ( 0.000000000000000000, 0.000000000000000000, 1.000000000000000000 ) ) ;
#51 = CARTESIAN_POINT ( 'NONE',  ( 0.000000000000000000, 0.000000000000000000, 0.000000000000000000 ) ) ;
#52 = DIRECTION ( 'NONE',  ( 1.000000000000000000, 0.000000000000000000, -0.000000000000000000 ) ) ;
#53 = ORIENTED_EDGE ( 'NONE', *, *, #91, .F. ) ;
#54 = AXIS2_PLACEMENT_3D ( 'NONE', #27, #180, #10 ) ;
#55 = PERSON_AND_ORGANIZATION ( #141, #246 ) ;
#56 = APPLICATION_PROTOCOL_DEFINITION ( 'international standard', 'config_control_design', 1994, #206 ) ;
#57 = PERSON_AND_ORGANIZATION ( #141, #246 ) ;
#58 = EDGE_CURVE ( 'NONE', #109, #193, #129, .T. ) ;
#59 = DATE_AND_TIME ( #235, #234 ) ;
#60 = DIRECTION ( 'NONE',  ( 0.000000000000000000, 0.000000000000000000, 1.000000000000000000 ) ) ;
#61 = CYLINDRICAL_SURFACE ( 'NONE', #119, 5.000000000000000000 ) ;
#62 = LINE ( 'NONE', #221, #187 ) ;
#63 = VERTEX_POINT ( 'NONE', #81 ) ;
#64 = CARTESIAN_POINT ( 'NONE',  ( 2.549999999999999822, 3.122849337825750419E-16, 35.00000000000000000 ) ) ;
#65 = CARTESIAN_POINT ( 'NONE',  ( 0.000000000000000000, 0.000000000000000000, 35.00000000000000000 ) ) ;
#66 = EDGE_CURVE ( 'NONE', #247, #202, #189, .T. ) ;
#67 = ORIENTED_EDGE ( 'NONE', *, *, #58, .F. ) ;
#68 = AXIS2_PLACEMENT_3D ( 'NONE', #142, #164, #77 ) ;
#69 = LINE ( 'NONE', #31, #14 ) ;
#70 = EDGE_LOOP ( 'NONE', ( #105, #39 ) ) ;
#71 = APPROVAL_DATE_TIME ( #156, #243 ) ;
#72 = EDGE_CURVE ( 'NONE', #30, #247, #139, .T. ) ;
#73 = PERSON_AND_ORGANIZATION ( #141, #246 ) ;
#74 = LOCAL_TIME ( 16, 53, 45.00000000000000000, #21 ) ;
#75 = PERSON_AND_ORGANIZATION ( #141, #246 ) ;
#76 = CIRCLE ( 'NONE', #68, 5.000000000000000000 ) ;
#77 = DIRECTION ( 'NONE',  ( 1.000000000000000000, 0.000000000000000000, 0.000000000000000000 ) ) ;
#78 = CARTESIAN_POINT ( 'NONE',  ( -5.000000000000000000, 0.000000000000000000, 35.00000000000000000 ) ) ;
#79 = AXIS2_PLACEMENT_3D ( 'NONE', #201, #80, #120 ) ;
#80 = DIRECTION ( 'NONE',  ( 0.000000000000000000, 0.000000000000000000, 1.000000000000000000 ) ) ;
#81 = CARTESIAN_POINT ( 'NONE',  ( 2.549999999999999822, 3.122849337825750419E-16, 0.000000000000000000 ) ) ;
#82 = CARTESIAN_POINT ( 'NONE',  ( 0.000000000000000000, 0.000000000000000000, 35.00000000000000000 ) ) ;
#83 = PLANE ( 'NONE',  #237 ) ;
#84 = DIRECTION ( 'NONE',  ( -1.000000000000000000, 0.000000000000000000, 0.000000000000000000 ) ) ;
#85 = LOCAL_TIME ( 16, 53, 45.00000000000000000, #135 ) ;
#86 = ORIENTED_EDGE ( 'NONE', *, *, #157, .T. ) ;
#87 = PRODUCT_DEFINITION_SHAPE ( 'NONE', 'NONE',  #22 ) ;
#88 = ORIENTED_EDGE ( 'NONE', *, *, #205, .T. ) ;
#89 = ORIENTED_EDGE ( 'NONE', *, *, #91, .T. ) ;
#90 = MANIFOLD_SOLID_BREP ( 'Áîáûøêà-Âûòÿíóòü1', #3 ) ;
#91 = EDGE_CURVE ( 'NONE', #143, #30, #114, .T. ) ;
#92 = CARTESIAN_POINT ( 'NONE',  ( 0.000000000000000000, 0.000000000000000000, 0.000000000000000000 ) ) ;
#93 = ADVANCED_BREP_SHAPE_REPRESENTATION ( 'AL-HD14-5.1x10-35 -ø¸ªðý¡øþýýð  òªºûúð 5.1x10-35', ( #90, #210 ), #146 ) ;
#94 = ADVANCED_FACE ( 'NONE', ( #144 ), #61, .T. ) ;
#95 = EDGE_LOOP ( 'NONE', ( #190, #2, #218, #208 ) ) ;
#96 = CALENDAR_DATE ( 2024, 12, 12 ) ;
#97 = DATE_AND_TIME ( #96, #117 ) ;
#98 = CALENDAR_DATE ( 2024, 12, 12 ) ;
#99 = LOCAL_TIME ( 16, 53, 45.00000000000000000, #196 ) ;
#100 = APPROVAL_DATE_TIME ( #191, #230 ) ;
#101 = AXIS2_PLACEMENT_3D ( 'NONE', #47, #178, #44 ) ;
#102 = DIRECTION ( 'NONE',  ( 1.000000000000000000, 0.000000000000000000, 0.000000000000000000 ) ) ;
#103 = ORIENTED_EDGE ( 'NONE', *, *, #192, .T. ) ;
#104 = CARTESIAN_POINT ( 'NONE',  ( 0.000000000000000000, 0.000000000000000000, 35.00000000000000000 ) ) ;
#105 = ORIENTED_EDGE ( 'NONE', *, *, #205, .F. ) ;
#106 = CC_DESIGN_PERSON_AND_ORGANIZATION_ASSIGNMENT ( #73, #232, ( #155 ) ) ;
#107 = ORIENTED_EDGE ( 'NONE', *, *, #111, .F. ) ;
#108 = DIRECTION ( 'NONE',  ( -0.000000000000000000, -0.000000000000000000, -1.000000000000000000 ) ) ;
#109 = VERTEX_POINT ( 'NONE', #160 ) ;
#110 = CC_DESIGN_APPROVAL ( #230, ( #22 ) ) ;
#111 = EDGE_CURVE ( 'NONE', #63, #127, #158, .T. ) ;
#112 = CIRCLE ( 'NONE', #37, 2.549999999999999822 ) ;
#113 = DATE_AND_TIME ( #98, #74 ) ;
#114 = CIRCLE ( 'NONE', #9, 5.000000000000000000 ) ;
#115 = CALENDAR_DATE ( 2024, 12, 12 ) ;
#116 = DIRECTION ( 'NONE',  ( 0.000000000000000000, 0.000000000000000000, 1.000000000000000000 ) ) ;
#117 = LOCAL_TIME ( 16, 53, 45.00000000000000000, #188 ) ;
#118 = DIRECTION ( 'NONE',  ( 1.000000000000000000, 0.000000000000000000, 0.000000000000000000 ) ) ;
#119 = AXIS2_PLACEMENT_3D ( 'NONE', #104, #162, #199 ) ;
#120 = DIRECTION ( 'NONE',  ( 1.000000000000000000, 0.000000000000000000, 0.000000000000000000 ) ) ;
#121 = CARTESIAN_POINT ( 'NONE',  ( 0.000000000000000000, 0.000000000000000000, 35.00000000000000000 ) ) ;
#122 = EDGE_CURVE ( 'NONE', #193, #63, #198, .T. ) ;
#123 = FACE_BOUND ( 'NONE', #124, .T. ) ;
#124 = EDGE_LOOP ( 'NONE', ( #67, #200 ) ) ;
#125 = APPROVAL_PERSON_ORGANIZATION ( #172, #243, #154 ) ;
#126 = DIRECTION ( 'NONE',  ( 0.000000000000000000, 0.000000000000000000, 1.000000000000000000 ) ) ;
#127 = VERTEX_POINT ( 'NONE', #161 ) ;
#128 = FACE_BOUND ( 'NONE', #145, .T. ) ;
#129 = CIRCLE ( 'NONE', #54, 2.549999999999999822 ) ;
#130 = APPLICATION_CONTEXT ( 'configuration controlled 3d designs of mechanical parts and assemblies' ) ;
#131 = PRODUCT_RELATED_PRODUCT_CATEGORY ( 'detail', '', ( #169 ) ) ;
#132 = CC_DESIGN_APPROVAL ( #174, ( #155 ) ) ;
#133 = AXIS2_PLACEMENT_3D ( 'NONE', #11, #60, #179 ) ;
#134 = APPROVAL_STATUS ( 'not_yet_approved' ) ;
#135 = COORDINATED_UNIVERSAL_TIME_OFFSET ( 3, 0, .AHEAD. ) ;
#136 = DATE_TIME_ROLE ( 'creation_date' ) ;
#137 = DATE_TIME_ROLE ( 'classification_date' ) ;
#138 = CC_DESIGN_DATE_AND_TIME_ASSIGNMENT ( #97, #136, ( #22 ) ) ;
#139 = LINE ( 'NONE', #28, #227 ) ;
#140 = DIRECTION ( 'NONE',  ( 0.000000000000000000, 0.000000000000000000, 1.000000000000000000 ) ) ;
#141 = PERSON ( 'UNSPECIFIED', 'UNSPECIFIED', 'UNSPECIFIED', ('UNSPECIFIED'), ('UNSPECIFIED'), ('UNSPECIFIED') ) ;
#142 = CARTESIAN_POINT ( 'NONE',  ( 0.000000000000000000, 0.000000000000000000, 35.00000000000000000 ) ) ;
#143 = VERTEX_POINT ( 'NONE', #78 ) ;
#144 = FACE_OUTER_BOUND ( 'NONE', #95, .T. ) ;
#145 = EDGE_LOOP ( 'NONE', ( #103, #35 ) ) ;
#146 =( GEOMETRIC_REPRESENTATION_CONTEXT ( 3 ) GLOBAL_UNCERTAINTY_ASSIGNED_CONTEXT ( ( #224 ) ) GLOBAL_UNIT_ASSIGNED_CONTEXT ( ( #171, #233, #159 ) ) REPRESENTATION_CONTEXT ( 'NONE', 'WORKASPACE' ) );
#147 = EDGE_LOOP ( 'NONE', ( #170, #53, #166, #88 ) ) ;
#148 = CARTESIAN_POINT ( 'NONE',  ( 0.000000000000000000, 0.000000000000000000, 35.00000000000000000 ) ) ;
#149 = EDGE_CURVE ( 'NONE', #109, #127, #62, .T. ) ;
#150 = CC_DESIGN_PERSON_AND_ORGANIZATION_ASSIGNMENT ( #75, #152, ( #167 ) ) ;
#151 = AXIS2_PLACEMENT_3D ( 'NONE', #7, #140, #216 ) ;
#152 = PERSON_AND_ORGANIZATION_ROLE ( 'design_supplier' ) ;
#153 = PERSON_AND_ORGANIZATION_ROLE ( 'design_owner' ) ;
#154 = APPROVAL_ROLE ( '' ) ;
#155 = SECURITY_CLASSIFICATION ( '', '', #4 ) ;
#156 = DATE_AND_TIME ( #177, #99 ) ;
#157 = EDGE_CURVE ( 'NONE', #30, #143, #76, .T. ) ;
#158 = CIRCLE ( 'NONE', #223, 2.549999999999999822 ) ;
#159 =( NAMED_UNIT ( * ) SI_UNIT ( $, .STERADIAN. ) SOLID_ANGLE_UNIT ( ) );
#160 = CARTESIAN_POINT ( 'NONE',  ( -2.549999999999999822, 0.000000000000000000, 35.00000000000000000 ) ) ;
#161 = CARTESIAN_POINT ( 'NONE',  ( -2.549999999999999822, 0.000000000000000000, 0.000000000000000000 ) ) ;
#162 = DIRECTION ( 'NONE',  ( -0.000000000000000000, -0.000000000000000000, -1.000000000000000000 ) ) ;
#163 = ORIENTED_EDGE ( 'NONE', *, *, #239, .T. ) ;
#164 = DIRECTION ( 'NONE',  ( 0.000000000000000000, 0.000000000000000000, 1.000000000000000000 ) ) ;
#165 = FACE_OUTER_BOUND ( 'NONE', #147, .T. ) ;
#166 = ORIENTED_EDGE ( 'NONE', *, *, #8, .T. ) ;
#167 = PRODUCT_DEFINITION_FORMATION_WITH_SPECIFIED_SOURCE ( 'ANY', '', #169, .NOT_KNOWN. ) ;
#168 = FACE_OUTER_BOUND ( 'NONE', #241, .T. ) ;
#169 = PRODUCT ( 'AL-HD14-5.1x10-35 Äèñòàíöèîííàÿ âòóëêà 5.1x10-35', 'AL-HD14-5.1x10-35 Äèñòàíöèîííàÿ âòóëêà 5.1x10-35', '', ( #194 ) ) ;
#170 = ORIENTED_EDGE ( 'NONE', *, *, #72, .F. ) ;
#171 =( LENGTH_UNIT ( ) NAMED_UNIT ( * ) SI_UNIT ( .MILLI., .METRE. ) );
#172 = PERSON_AND_ORGANIZATION ( #141, #246 ) ;
#173 = APPROVAL_STATUS ( 'not_yet_approved' ) ;
#174 = APPROVAL ( #134, 'UNSPECIFIED' ) ;
#175 = PERSON_AND_ORGANIZATION ( #141, #246 ) ;
#176 = CIRCLE ( 'NONE', #101, 5.000000000000000000 ) ;
#177 = CALENDAR_DATE ( 2024, 12, 12 ) ;
#178 = DIRECTION ( 'NONE',  ( 0.000000000000000000, 0.000000000000000000, 1.000000000000000000 ) ) ;
#179 = DIRECTION ( 'NONE',  ( 1.000000000000000000, 0.000000000000000000, -0.000000000000000000 ) ) ;
#180 = DIRECTION ( 'NONE',  ( 0.000000000000000000, 0.000000000000000000, 1.000000000000000000 ) ) ;
#181 = CARTESIAN_POINT ( 'NONE',  ( 0.000000000000000000, 0.000000000000000000, 0.000000000000000000 ) ) ;
#182 = ORIENTED_EDGE ( 'NONE', *, *, #122, .T. ) ;
#183 = FACE_OUTER_BOUND ( 'NONE', #228, .T. ) ;
#184 = CC_DESIGN_PERSON_AND_ORGANIZATION_ASSIGNMENT ( #57, #38, ( #22 ) ) ;
#185 = DESIGN_CONTEXT ( 'detailed design', #206, 'design' ) ;
#186 = CYLINDRICAL_SURFACE ( 'NONE', #32, 2.549999999999999822 ) ;
#187 = VECTOR ( 'NONE', #238, 1000.000000000000000 ) ;
#188 = COORDINATED_UNIVERSAL_TIME_OFFSET ( 3, 0, .AHEAD. ) ;
#189 = CIRCLE ( 'NONE', #79, 5.000000000000000000 ) ;
#190 = ORIENTED_EDGE ( 'NONE', *, *, #157, .F. ) ;
#191 = DATE_AND_TIME ( #115, #85 ) ;
#192 = EDGE_CURVE ( 'NONE', #127, #63, #112, .T. ) ;
#193 = VERTEX_POINT ( 'NONE', #64 ) ;
#194 = MECHANICAL_CONTEXT ( 'NONE', #130, 'mechanical' ) ;
#195 = CC_DESIGN_PERSON_AND_ORGANIZATION_ASSIGNMENT ( #175, #41, ( #167 ) ) ;
#196 = COORDINATED_UNIVERSAL_TIME_OFFSET ( 3, 0, .AHEAD. ) ;
#197 = APPROVAL_ROLE ( '' ) ;
#198 = LINE ( 'NONE', #6, #248 ) ;
#199 = DIRECTION ( 'NONE',  ( -1.000000000000000000, 0.000000000000000000, 0.000000000000000000 ) ) ;
#200 = ORIENTED_EDGE ( 'NONE', *, *, #239, .F. ) ;
#201 = CARTESIAN_POINT ( 'NONE',  ( 0.000000000000000000, 0.000000000000000000, 0.000000000000000000 ) ) ;
#202 = VERTEX_POINT ( 'NONE', #215 ) ;
#203 = DIRECTION ( 'NONE',  ( -0.000000000000000000, -0.000000000000000000, -1.000000000000000000 ) ) ;
#204 = DIRECTION ( 'NONE',  ( -1.000000000000000000, 0.000000000000000000, 0.000000000000000000 ) ) ;
#205 = EDGE_CURVE ( 'NONE', #202, #247, #176, .T. ) ;
#206 = APPLICATION_CONTEXT ( 'configuration controlled 3d designs of mechanical parts and assemblies' ) ;
#207 = DIRECTION ( 'NONE',  ( -0.000000000000000000, -0.000000000000000000, -1.000000000000000000 ) ) ;
#208 = ORIENTED_EDGE ( 'NONE', *, *, #8, .F. ) ;
#209 = AXIS2_PLACEMENT_3D ( 'NONE', #65, #108, #204 ) ;
#210 = AXIS2_PLACEMENT_3D ( 'NONE', #92, #116, #40 ) ;
#211 = ADVANCED_FACE ( 'NONE', ( #26, #123 ), #236, .T. ) ;
#212 = PERSON_AND_ORGANIZATION ( #141, #246 ) ;
#213 = APPLICATION_PROTOCOL_DEFINITION ( 'international standard', 'config_control_design', 1994, #130 ) ;
#214 = AXIS2_PLACEMENT_3D ( 'NONE', #148, #46, #226 ) ;
#215 = CARTESIAN_POINT ( 'NONE',  ( -5.000000000000000000, 0.000000000000000000, 0.000000000000000000 ) ) ;
#216 = DIRECTION ( 'NONE',  ( 1.000000000000000000, 0.000000000000000000, 0.000000000000000000 ) ) ;
#217 = CARTESIAN_POINT ( 'NONE',  ( 0.000000000000000000, 0.000000000000000000, 0.000000000000000000 ) ) ;
#218 = ORIENTED_EDGE ( 'NONE', *, *, #66, .T. ) ;
#219 = CC_DESIGN_PERSON_AND_ORGANIZATION_ASSIGNMENT ( #212, #153, ( #169 ) ) ;
#220 = APPROVAL_PERSON_ORGANIZATION ( #55, #174, #42 ) ;
#221 = CARTESIAN_POINT ( 'NONE',  ( -2.549999999999999822, 0.000000000000000000, 35.00000000000000000 ) ) ;
#222 = CARTESIAN_POINT ( 'NONE',  ( 5.000000000000000000, 6.123233995736766282E-16, 35.00000000000000000 ) ) ;
#223 = AXIS2_PLACEMENT_3D ( 'NONE', #181, #244, #240 ) ;
#224 = UNCERTAINTY_MEASURE_WITH_UNIT (LENGTH_MEASURE( 1.000000000000000082E-05 ), #171, 'distance_accuracy_value', 'NONE');
#225 = DIRECTION ( 'NONE',  ( 0.000000000000000000, 0.000000000000000000, 1.000000000000000000 ) ) ;
#226 = DIRECTION ( 'NONE',  ( -1.000000000000000000, 0.000000000000000000, 0.000000000000000000 ) ) ;
#227 = VECTOR ( 'NONE', #203, 1000.000000000000000 ) ;
#228 = EDGE_LOOP ( 'NONE', ( #245, #163, #15, #107 ) ) ;
#229 = ORIENTED_EDGE ( 'NONE', *, *, #192, .F. ) ;
#230 = APPROVAL ( #23, 'UNSPECIFIED' ) ;
#231 = APPROVAL_PERSON_ORGANIZATION ( #19, #230, #197 ) ;
#232 = PERSON_AND_ORGANIZATION_ROLE ( 'classification_officer' ) ;
#233 =( NAMED_UNIT ( * ) PLANE_ANGLE_UNIT ( ) SI_UNIT ( $, .RADIAN. ) );
#234 = LOCAL_TIME ( 16, 53, 45.00000000000000000, #20 ) ;
#235 = CALENDAR_DATE ( 2024, 12, 12 ) ;
#236 = PLANE ( 'NONE',  #133 ) ;
#237 = AXIS2_PLACEMENT_3D ( 'NONE', #51, #225, #52 ) ;
#238 = DIRECTION ( 'NONE',  ( -0.000000000000000000, -0.000000000000000000, -1.000000000000000000 ) ) ;
#239 = EDGE_CURVE ( 'NONE', #193, #109, #24, .T. ) ;
#240 = DIRECTION ( 'NONE',  ( 1.000000000000000000, 0.000000000000000000, 0.000000000000000000 ) ) ;
#241 = EDGE_LOOP ( 'NONE', ( #18, #182, #229, #29 ) ) ;
#242 = SHAPE_DEFINITION_REPRESENTATION ( #87, #93 ) ;
#243 = APPROVAL ( #173, 'UNSPECIFIED' ) ;
#244 = DIRECTION ( 'NONE',  ( 0.000000000000000000, 0.000000000000000000, 1.000000000000000000 ) ) ;
#245 = ORIENTED_EDGE ( 'NONE', *, *, #122, .F. ) ;
#246 = ORGANIZATION ( 'UNSPECIFIED', 'UNSPECIFIED', '' ) ;
#247 = VERTEX_POINT ( 'NONE', #45 ) ;
#248 = VECTOR ( 'NONE', #25, 1000.000000000000000 ) ;
#249 = CYLINDRICAL_SURFACE ( 'NONE', #214, 2.549999999999999822 ) ;
ENDSEC;
END-ISO-10303-21;
